T+Transpose Chords Up0 T−Transpose Chords Down
February 16, 2019 •

Uyiril Thodum – Kumbalangi Nights

Guitar chords / tabs for the song Uyiril Thodum from the movie Kumbalangi Nights.

Song: Uyiril Thodum
Movie: Kumbalangi Nights
Singers: Sooraj Santhosh, Anne Amie
Music: Sushin Shyam

Listen to this cover to get a better idea of how to play the song. There is a slight variation in the intro tune with the original. This post has the correct tabs from the original song.

UPDATE: For the lead tabs, scroll down 🙂

Intro

       Em             C                        D                 Bm

E---------------------------------------------|
B-----------5---5--5-5---7--7-----3---3--3-3--|   
G--0--0---------------------------------------|   x2 Times
D---------------------------------------------|
A-----------3---3--3-3---5--5-----2---2--2-2--|
E--0--0---------------------------------------|

Now start strumming – chords inside [ ]

[Em] D UDU [C] D UDU DD U [DD UDU [Bm] D UDU DD U

 


 

Em    C        D          Bm
Uyiril Thodum Thalir

Em    C        D          Bm
Viralavane Nee …

Em    C    D    Bm
Arike Nadakkane

Em         C                              D              Bm 
Alayum Chudu Kattininu Koottinayay

 

Em            C
Naamoru Naal…

D                 Bm
Kinakkudilil

[] – single strum

Em                C             [D]
Chennanayu, Miru Nilavalayay

 


 

Em      C    D         Bm
Aarum….Kaanaa…

Em        C   
Hridayatharamathil

D         Bm 
Uruki Naamann-

E         C        D        Bm
Arum  Kelkkaa…

Em         C
Pranayajalakadha

D              Bm
Palavuru Parayumo?

 


 

Em    C        D          Bm
Uyiril Thodum Thalir

Em    C        D          Bm
Viralavane Nee …

Em    C    D    Bm
Arike Nadakkane

Em         C                              D              Bm 
Alayum Chudu Kattininu Koottinayay

 

Em            C
Naamoru Naal…

D                 Bm
Kinakkudilil

Em                C             [D]
Chennanayu, Miru Nilavalayay

 


 

Em      C    D         Bm
Aarum….Kaanaa…

Em        C   
Hridayatharamathil

D         Bm 
Uruki Naamann-

E         C        D        Bm
Arum  Kelkkaa…

Em         C
Pranayajalakadha

D              Bm
Palavuru Parayumo?

 


 

C#m
Vazhiyorangal Thorum

G#m                                E
Thanalayee Padarchilla Nee

Bm               F#m
Kudayay Nivarnnu Nee

A                                       E
Novaaraathe Thoraathe Peyke

 

C#m
Thuzhayolangal Pol Nin

G#m                                         E
Kadavathonnu Njan Thottu Melle

 

Am                               D
Kaattee Chillayithil Veeshane

G                         C
Kaare Ilayithil Peyyane

Am                     Bm
Melle Theeramithilolangalolangalay
Nee Varoo….

 


 

Em    C     D      Bm
Uyiril Thalodeedum

Em    C        D          Bm
Uyirayidum Naam….

Em        C        D          Bm
Naamorunaal Kinakkadalil

Em        C         [D]
Chennayumiru Nilaanadiyay

 


 

Em      C    D         Bm
Aarum….Kaanaa…

Em        C   
Hridayatharamathil

D         Bm 
Uruki Naamann-

E         C        D        Bm
Arum  Kelkkaa…

Em         C
Pranayajalakadha

D              Bm
Palavuru Thudarumo?

 


 

Lead Tabs (as played in the video)

/ - Slide or Hammer on

E--------------------------------------------------|
B--------------------------------------------------|
G-------------0--0/2--0--------4--4/5/4--2--0------|
D--2--4--4/5--------------4--2----------------4----|
A--------------------------------------------------|
E--------------------------------------------------|

E-----------------------------------------------------------|
B-----------------------------------------------------------|
G-------------0--0/2--0-----------7--9--9/7--5--4--2/4/2--0-|
D--2--4--4/5-------------4--5-4-5---------------------------|
A-----------------------------------------------------------|
E-----------------------------------------------------------|

E------------------------------------------------------------|
B------------------------------------------------------------|
G--0--0-2--2/4-----------------0--0-2-4-5-7-9-9/11--7/9/7--4-|
D--------------2--2/4--4/5--5--------------------------------|
A------------------------------------------------------------|
E------------------------------------------------------------|

Chorus (Play twice)

E-----------------------------------|
B-----------------------------------|
G--4--4/9--4--4/11--11/12/11--9-11--|
D-----------------------------------|
A-----------------------------------|
E-----------------------------------|
E----------------------------------------|
B----------------------------------------|
G--12-12-11-12-11-9-7-11-11-9-7/9/7-5-4--|
D----------------------------------------|
A----------------------------------------|
E----------------------------------------|



You May Also Like