T+Transpose Chords Up0 T−Transpose Chords Down
December 14, 2018 •

Kunnimani – Ponmuttayidunna Tharavu

Guitar chords / tabs for the song Kunnimani Cheppu from the movie Ponmuttayidunna Thaaravu, as performed by Gowry Lekshmi on Music Mojo Season 5.

Song: Kunnimani
Movie: Ponmuttayidunna Tharavu
Singer: K. S. Chithra (Performed by Gowry Lekshmi)
Music: Johnson

The plucking is mostly just the string from the chords C, Am7, F and G chords.

Intro

       C                                     Am7                       F                         G

E--------0--1--0--------------------------------------------|
B-----------------3--------1---------------------------1/0--|   
G------------------------0---0------------2-----------------|   x2 Times
D----2-----------------2-------2--------3---3--------0------|
A--3-----------------0-----------0----3-------3-----2-------|
E-----------------------------------1------------3----------|

/ - Pull off

Continue above plucking, but this time for C, just play it normally

C                 Am7                  F                 G
Kunnimani cheppu thurannenni nokkum neram

C                  Am7                F                   G
Pinnil vannu kannu pothum thozhanengu poyi

C                   A#                 F                    G
Kattu vannu ponmulathan kathil moolum neram

C                  Am7             F                   G
kathu ninna thozhanenne orthu padum pole

 

C                 Am7                  F                 G
Kunnimani cheppu thurannenni nokkum neram

C                  Am7                F                   G
Pinnil vannu kannu pothum thozhanengu poyi

C                   A#                 F                    G
Kattu vannu ponmulathan kathil moolum neram

C                  Am7             Dm                G
kathu ninna thozhanenne orthu padum pole

 


 

       C                                                         Am7

E----------------------------------------------|
B--------1----1/3--5--5/3--1--------1--0--1----|   
G------0---0----------------------0------------|
D----2--------------------------2--------------|
A--3--------------------------0----------------|
E----------------------------------------------|

       F                         G

E-----------------------------|
B-----------------------------|   
G--------2-------------4------|
D------3---3---------5---5----|
A----3-------3-----5-------5--|
E--1-------------3------------|

       C                  Am7

E---------------0-------|
B--------1---3-----3----|   
G------0----------------|
D----2------------------|
A--3---------0----------|
E-----------------------|

 

C              Am7                F                   G
Attirambil poovukal than ghoshayathrayayi

C                Am7         A#               G
Poothilanhi ponveyil kunkumappoo neele

 

       C                       C                     C

E------------------------------------------3---------|
B--------1-----------1-----------1-----3/5---5/3--1--|   
G------0---0-------0---0-------0---0-----------------|
D----2-------2---2-------2---2-------2---------------|
A--3-----------3-----------3-------------------------|
E----------------------------------------------------|

C              Am7                F                   G
Attirambil poovukal than ghoshayathrayayi

C                Am7         A#               G
Poothilanhi ponveyil kunkumappoo neele

C                Am7    F                  D#m7
Aavani than theril nee varanhathenthe

Innu nee varanhathenthe

 

E------8-----8-----8----|
B----8-----8-----8------|   
G--5-----5-----5-----5--|
D-----------------------|
A-----------------------|
E-----------------------|


 

C                 Am7                  F                 G
Kunnimani cheppu thurannenni nokkum neram

C                  Am7                F                   G
Pinnil vannu kannu pothum thozhanengu poyi

C                   Am7              A#                   G
Kattu vannu ponmulathan kathil moolum neram

C                  Am7             F                   G
kathu ninna thozhanenne orthu padum pole

 


You May Also Like