T+Transpose Chords Up0 T−Transpose Chords Down
March 10, 2019 •

Cherathukal – Kumbalangi Nights

Guitar chords / tabs for the song Cherathukal from the movie Kumbalangi Nights.

Song: Cherathukal
Movie: Kumbalangi Nights
Singers: Sithara Krishnakumar, Sushin Shyam
Music: Sushin Shyam

Watch this cover to get a better idea of how to play:

UPDATE: For the lead tabs, scroll down.

Intro

       G          F#m     Em      Bm         G          A        E

E----------------------------------------------------------------------|
B------------------------3---------------------------------------------|   
G-----4------2-----0--------4------4----6-----1---1---1---1---1---1----|
D-----------------------------------------------2-------2-------2------|
A---------------------2------------------------------------------------|
E--3------2-----0---------------3-----5-----0-------0-------0-------0--|

 

       G                  F#m             Em             Bm

E---------------------------------------------|
B-------------------------------------3-------|   
G-----4---4------2---2----0---0---------4-----|
D-------5----------4--------2------4------4---|
A--------------------------------2------------|
E--3----------2---------0---------------------|

 

Continue plucking in above manner..

[] – Single D strum

           G    F#m     Em
Cheraathukal thorum ninn

Bm                        G        A         E
Theeyormayaay..

          G      F#m       Em 
Tharaathe pom chaaruvaam

Bm               G             A            [E]
Ummakalaal

 

             G                Bm
Chuzhalunnori kuttaakoorirul

            D                        A
Kazhiyolam njaan eriyaam..

 


 

I prefer to play the higher barred version of these chords, but feel free to play wherever you feel more comfortable..

Start strumming D U D U

Mmmm mmmmm

Bm                            E
Mmm Mmm Mmm Mmm Mmm

G                                D
Mmm Mmm Mmm Mmm

A                                E           E           E
Mmm Mmm Mmm Mmm  Mmmmm

 

Bm                            E
Mmm Mmm Mmm Mmm Mmm

G                                D
Mmm Mmm Mmm Mmm

A                                E           E           E
Mmm Mmm Mmm Mmm  Mmmmm

 


 

C            A                E       E
Ulakin kadunovaatum thanuthoru

Bm            F#m               E
Pularkaataay veeshidaam njaan..

 

C               A               E                  E
Ushassin nanamey thorthaanirangum

F#
Veyilaayidaam..

 

A           Bm       G        Em
Paarilorunjaalalayaay njaan

D               F#             Bm
Varaam.. ninnaakashamaay..

 

         Em               Bm
Nirayunnori kanneer kayangal

          D             A
Kadal njaan, kareridaam..

 


 

Back to strumming…

Bm                            E
Mmm Mmm Mmm Mmm Mmm

G                                D
Mmm Mmm Mmm Mmm

A                                E           E           E
Mmm Mmm Mmm Mmm  Mmmmm

 

Bm                            E
Mmm Mmm Mmm Mmm Mmm

G                                D
Mmm Mmm Mmm Mmm

A                                E           E           E
Mmm Mmm Mmm Mmm  Mmmmm

 


 

Bm            E             G
Makane njaanundarikathoru

D     A   E           E           E 
Kaana kannottamaay

Bm            E             G
Makane njaanundakalathoru

D     A   E           E           E 
Kaaval maalakhayaay

 


 

Bm                            E
Mmm Mmm Mmm Mmm Mmm

G                                D
Mmm Mmm Mmm Mmm

A                                E           E           E
Mmm Mmm Mmm Mmm  Mmmmm

 


 

Lead Tabs (as played in the video)

/ - Slide or Hammer on

E--------------------------------------------------|
B--------------------------------------------------|
G--4--4/7--4--7--9--9/11--11/9--7/6/4--2--2/4------|
D--------------------------------------------------|
A--------------------------------------------------|
E--------------------------------------------------|
E------------------|
B------------------|
G--4/6--4--2--2/4--|
D------------------|
A------------------|
E------------------|
E-----------------------------------------------|
B-----------------------------------------------|
G--7/9--9/7--4--7-9--9/11--11/9--7/6/4--2--2/4--|
D-----------------------------------------------|
A-----------------------------------------------|
E-----------------------------------------------|
E------------------|
B------------------|
G--4/6--7--6--4----|
D------------------|
A------------------|
E------------------|
E-----------------------------------------------------------------|
B--0--7--5--0--5--0--7-5-3-2/5-3--3--5--5/10--7--10--10/12--2--2--|
G-----------------------------------------------------------------|
D-----------------------------------------------------------------|
A-----------------------------------------------------------------|
E-----------------------------------------------------------------|

 

Chorus (Play twice)

E-------------------------------------------------|
B--2-3-2-0---5-7-5-3---2-3-2-0---0---3/2/0---0-2--|
G------------------------------2-----------2------|
D-------------------------------------------------|
A-------------------------------------------------|
E-------------------------------------------------|

 


You May Also Like