April 22, 2017 •

Thaniye – Guppy

Guitar chords / tabs for the song Thaniye from the movie Guppy.

Song: Thaniye
Movie: Guppy
Singer: Sooraj Santhosh
Music: Vishnu Vijay

Strum single down strokes here..

E             A                          E
Thaniye mizhikal thulumbiyo

E            A                            E
Veruthe mozhikal vithumbiyo

 

The picking pattern / arpeggio for the chords from here are interesting. Here is how you’d pluck the strings for chord. Rest of them follow the same pattern..

 E

------------------0-------|
-------0--------0---------|   
---------1----1-----------|   
----2------2--------------|
-2------------------------|
--------------------------|

E                  A                  E                         B
Manjerum.. vinnuoram.. mazhamaayum polle..

E                 A                 E                    B
Kunjomal.. kannoram.. kanneerum.. maayenam..

E               A               E
Nenjoram kunnolam chelerum

B
Kannavukalu morupidi

 

Start strumming..

E
Kaavalay vazhi thedanam

A                        B
Oru maarivil chirakeranam

E
Aasha than therithil

F#m                              A
Parannu vaanil nee uyaranam

 

E                    G#m
Ida nenjile murivaaranam

       A                B
Iru kanilum mizhiveranam

E                                       A
Nanmakal pookumee pulari thedi

B
Nee ozhukanam

 

E                    A       B

E                    A        B

 

Single strokes here..

E          C#m
Akatharilee

A                         B
Cheru thengal manjidum

E                      A                         E
Thiri neetumee kulirormakal

                E
Thirike varum.

 

Here is a rough interpretation of the veena portion that can be played in your Guitar..

--2--4--5/4--0--2---7-7---|
--------------------------|
--------------------------|
--------------------------|
--------------------------|
--------------------------|

--2--4--5/4--0--0-----------------|
------------------4--0/2---4/2----|
--------------------------------2-|
----------------------------------|
----------------------------------|
----------------------------------|

------------------------------0/5--4--0-|
----0--4--5--4/2/0---0--2--4------------|
--2-------------------------------------|
----------------------------------------|
----------------------------------------|
----------------------------------------|

----------------------4--7--9--11--11/12--|
--4--5--4/2---0--0------------------------|
------------------------------------------|
------------------------------------------|
------------------------------------------|
------------------------------------------|

 

E                      E
Iravaakave.. pakalaakave..

A
Kavilathu ninteyi

E
Chirikaathidan ithuvazhi

 

C#m
Njan thunayaay

         F#m    G#m
Varaam iniyennume

C#m                  F#m     G#m
Kuda neerthidam thanalekidam

 

E             F#m    G#m          A
Oru nalla neram varavettidam

 

Start strumming..

E          G#m         F#m          B

E          G#m          F#m         A   B

 

E                A                 E                 B
Kunjomal kannoram kanneerum maayenam

E                  A                 C#m
Nenjoram kunnolam chelerum

B
Kanavukalu morupidi

 

E       A                E    A
Kaavalay vazhi thedanam

F#m        B
Oru maarivil chirakeranam

E         A        G#m    C#m
Aasha than therithil

F#m                B                E
Parannu vaanil nee uyaranam

 

      C#m
Ida nenjile murivaaranam

       F#m                    B
Iru kannilum mizhiveranam

E        A       C#m
Nanmakal pookumee

F#m    G#m
Pulari thedi

A       E
Nee ozhukanam

 

Lyrics: http://www.hilyrics.in/2016/12/thaniye-song-lyrics-guppy.html


You May Also Like