September 12, 2015 11:58 pm

Pathivayi Njan – Premam

Guitar chords/tabs for the song Pathivaayi Njan from the movie Premam.

Song: Pathivayi Njan
Movie: Premam
Singer: Shabareesh Varma
Music: Rajesh Murugeshan

Pathivayi NjanIntro

/ - Slide

E--------0--3--3/5---3---------|
B---1/3------------------------|   
G------------------------------|    x 2 Times
D------------------------------|
A------------------------------|
E------------------------------|

E-------3--7--7/8---7----------|
B--3/5-------------------------|   
G------------------------------|
D------------------------------|
A------------------------------|
E------------------------------|

E--------0--3--3/5---7/5--3----|
B---1/3------------------------|   
G------------------------------|
D------------------------------|
A------------------------------|
E------------------------------|

 

C                                                  G
Pathivaayi njan avale kaanaan pokaarunde

C                                                G
Pathivottum thettaathe njaan kaanaarunde

Dm                                      Am
Palanaalaai ullilothukkiya novaanenne

F                                         G
Parayaathini vayya nenjil theeyaanenne

 

G                                               D
Thirayilakana mizhiyoru arali poovanenne

G                                                   D
Madanappoo chendu virinjathu polanenne

C                                                 D
Madhurappathinezhilurukkiya ponnanenne

C                                                D
Mazhavillu varachathu poloru pennanenne

 

G                                               D
Thirayilakana mizhiyoru arali poovanenne

G                                                   D
Madanappoo chendu virinjathu polanenne

C                                                 D
Madhurappathinezhilurukkiya ponnanenne (avalude)

C                                                     G
Manimaaril chernnu mayangaan kothiyanenne

 

(Repeat same chords)

Pathivayi njan avale kaanaan pokaarunde
Pathivottum thettaathe njan kaanaarunde
Palanaalaai ullilothukkiya novaanenne
Parayaathini vayya nenjil theeyaanenne

Palavazhikalumadavukal palathum paazhaayenne (paazhaayenne)
Orupaanamudangaanennum koodaarunde (koodaarunde)
Kanivottum kittaathe njan karayaarunde
Gathikettittavalude purake alayaarunde

Palavazhikalumadavukal palathum paazhaayenne
Orupaanamudangaanennum koodaarunde
Kanivottum kittaathe njan karayarunde
Kalikaalam allaathendhu parayaanenne

Lyrics: http://www.lyricsol.com/pathivayi-njan-lyrics-premam-2015/


You May Also Like