August 27, 2012 3:08 pm

Nila Nila : Unplugged – Tournament

Guitar tabs / chords for Nila Nila Mizhiye (Unplugged) from Tournament

Song: Nila Nila Mizhiye
Movie: Tournament (2010)
Singer: Karthik
Music Director: Deepak Dev

Place a capo on 1st fret

E                 Esus4       B5     

----------------------------0---|  
-----0-----0----------0---------|    
-------1-----2-2--------4-------|         
---2----------------4-----4-----|
-2-------0--------2-------------|
--------------------------------|

Nilaa         Nila           Mizhiye

 

----------------------------0---|  
-----0-----0----------0---------|    
-------1-----2-2--------4-------|         
---2----------------4-----4-----|
-2-------0--------2-------------|
--------------------------------|

Nilaa         Nila           Mozhiye

 

F#                      E

-----------------------0--------|  
-----2-----------0--------------|    
-------3---3-------1------------|         
---4-----4-----2-----2----------|
-4-----------2------------------|
--------------------------------|

Oliambine        Eruthe

B5                     E

-----------------------0--------|  
-----0-----------0--------------|    
-------4---4-------1------------|         
---4-----4-----2-----2----------|
-2-----------2------------------|
--------------------------------|

Ini   Ente   Sundariye


Now Strum the following chords

E Esus4   (Strumming DDU D)

Esus4 E B5 (DDU DU D)

 

E                      

----------------|  
-----------0----|    
-------1-----1--|         
-----2---2------|
---2------------|
-0--------------|

Kannadi Kadamizhi Munnil

 

E                      

----------------|  
-----------0----|    
-------1-----1--|         
-----2---2------|
---2------------|
-0--------------|

Ponnaninja thiri Neeyo

 

Esus4          E                  

Maayaathe Maayalle

Repeat the same..

Kalivakkin Munayude Naavil
Mulluthanne Ennaalum
Theenai theenai nee

G
Parayille ente kaathil

F#
Pathiye nee

Esus4       B5
Njaanalle Njanalle ninmaaran..

(Nila nila..)


You May Also Like