October 30, 2012 7:29 pm

Nenjodu Cherthu – Yuvvh

Guitar tabs / chords for Nenjodu Cherthu by Yuvvh

Song: Nenjodu Cherthu
Album: Yuvvh
Singer: Aalap Raju
Music Director: Sreejith – Saachin

Untitled 1 Nenjodu Cherthu   Yuvvh

For the lead tabs, scroll down.

Here is a video tutorial of the intro:

This is a simplified tab of the starting guitar riff of the song. The tune is repeated many times during the song (Nenjodu cherthu part).

The song is in the D#m scale.
So without a capo, you’d be playing

D#m     C#     Bbm     B   and an F# also comes in between (in place of C in below chords).

I find it easy to play with a capo on the 6th fret since you can manage without the bar chords :P

Place a capo on 6th fret

Am                   G                       Em                     F

------------------------------------------------|
-------1-------3/0-----------0-----1-----1------|   
-----2---2---------0-------0---0-----2----------|
---2---------------------2----------------------|
-0---------------------2---------3--------------|
-----------3------------------------------------|

Am           G  
Nenjodu cherthu

Em          F
Pattonnu padan

Am        G        Em           F
Pattinte eenam neeyanu

Am          G          Em         F

Kaanathe kannil, ariyathe nenjil

Am            G           Em         F
Viriyunnu chitram, neeyanu

From here, you can start strumming – DDUUDUD

Am       Em                G
Neeeee varu ee pattin raagamai

Am       Em                G
Nee tharoo, ee chitram varnamai

C                             Em
Hridayam thookum pranayam

G
Nalki njanum nila sandhye

C                         Em           G
Thirike nanayum mizhikal, nalki neeyum engo maanju

Nenjodu cherthu..

Am                         Em
Kananai mohangal chirakadikkumbol,

F                                  G
Snehathin kaattayi nee enne thalodi

Am                               Em
Mizhiyile mozhiyilum ninmugham mathramai

Am                                Em        
Kanavile kannilum nin niram mathram

F                                G
Maayalle akale akale akale

Nenjodu cherthu..

Lead tabs (without capo)

Nenjodu cherthu..

-------------------------------|
-9/11-11-9-9-9---6/7-9-7-6-----|  
---------------------------8---|
-------------------------------|
-------------------------------|
-------------------------------|

-------------------------------|
-9/11-11-9-9-9---6/7-9-9-------|  
-------------------------------|
-------------------------------|
-------------------------------|
-------------------------------|

Nee varu..

--11-11/13-11-9--6-6/11-11-9---|
-------------------------------|  
-------------------------------|
-------------------------------|
-------------------------------|
-------------------------------|

--6-11-9--11-9-6---------------|
-----------------9-7-9---------|  
-------------------------------|
-------------------------------|
-------------------------------|
-------------------------------|

Hridayam thookum..

-------------------------------|
-11-9-11-11-9-11-11-9-11-------|  
-------------------------------|
-------------------------------|
-------------------------------|
-------------------------------|

------6/11-9-9/6-6/11-9--------|
-7-9---------------------------|  
-------------------------------|
-------------------------------|
-------------------------------|
-------------------------------|

  • http://www.blogger.com/profile/09900811154185283118 sree

    i need more lean cords

    • http://www.blogger.com/profile/01991214374127733875 Amit S Namboothiry

      sorry, didn’t get you

    • http://www.blogger.com/profile/01947005254004664303 jiswin’screativearts

      what u meant Sree? I wil try it 4 u! Just let me know what is exactly you meant?

  • http://www.blogger.com/profile/01947005254004664303 jiswin’screativearts

    Dude… Really grateful to you… thanks a lot

    • http://www.blogger.com/profile/01991214374127733875 Amit S Namboothiry

      always welcome :)

  • http://www.blogger.com/profile/11387214581910005683 Sreenath

    can u make a video of u playin it

  • Sahil Shaheen

    First off a big shout-out to you for making this site and sharing all this.

    I think the intro needs revision. All the chords are same, but I find the picking pattern to be different.

    Cheers man. Thanks.

    • amitsn

      Thanks for the kind words :)
      If you could point out the corrections, I can update the post.

      Cheers,
      Amit

  • Charles Finney

    First of all thanks for uploading this wonderful song ,i kinda feel like instead of
    Am G Em F i think this is more like the original – Am G Dm Em