July 23, 2017 •

Nallai Allai – Kaatru Veliyidai

Guitar chords / tabs for the song Nallai Allai from the movie Kaatru Veliyidai.

Song: Nallai Allai
Movie: Kaatru Veliyidai
Singers: Sathya Prakash, Chinmayi
Music: A. R. Rahman

Single down strokes here..

A                         D
Vaanil thedi nindren

D                          A
Aazhi nee adaindhaai

A                                D
Aazhi naan vizhundthaal

D                          A
Vaanil nee ezhundhai

 

For the below section, play the F#m, B, Bm and A in the position shown:

Ennai

F#m

--------------------------|
------------10------------|   
------11-------11---------|   
---11----11-------11------|
-9-------------------9----|
--------------------------|

Natchathira kattil

 

B

-----------------------|
------------7----------|   
------8-------8--------|   
---9----9-------9------|
-9----------------9----|
-----------------------|

Alayavittai

 

Bm

-----------------------|
------------7----------|   
------7----------------|   
---9----9--------------|
-9---------------------|
-----------------------|

Naan endra ennam

 

A

-----------------------|
------------5----------|   
------6----------------|   
---7----7--------------|
-7---------------------|
-----------------------|

Tholayavittaai

 


 

Now play the normal chords..

Strumming: D U D U

               A                 A
Nallai allai nallai allai

                  E                        A
Nannilavey nee nallai allai

 

               A               A
Nallai allai nallai allai

                  E                        A
Nannilavey nee nallai allai

 


 

-4/5--4/5--2--0-----------------------------|
-----------------3--2/3--0---2--3--5--5/7---|   
--------------------------------------------|   
--------------------------------------------|
--------------------------------------------|
--------------------------------------------|
-------------------------------|
-2--3--5--7--10--7--10/12------|   
-------------------------------|   
-------------------------------|
-------------------------------|
-------------------------------|

 


 

Strumming: D U D U

F#m                       C#m
Oligalin thedal enbadhellam

E                                A
Mounathil mudigindrade

D                                 E
Mounathin thedal enbadellam

E                                 A
Njaanathil mudigindradhe

 

Strumming: D D   U

D
Naan unnai thedum

E
Velaiyile nee

Play the last F#m and E only one stroke down..

A                      A              (F#m)   (E)
Megam soodi odivittaai


 

Repeat the same chords as above..

Nallai allai nallai allai
Nannilave nee nallai allai
Nallai allai nallai allai
Nallirave nee nallai allai

Mugai mugil
Muthendra nilaigalile
Muganthoda kaathirundhen
Malar endra nilai vittu
Pooththirundhaai
Manam kolla kaathirunthaen

Magarandham thedi
Nugarum munne
Veyil kaattil veezhndhuvittaai

Nallai allai nallai allai
Naarumpoove nee nallai allai
Nallai allai nallai allai
Mullai kollai nee nallai allai

Lyrics: http://www.lyricsol.com/nallai-allai-lyrics-kaatru-veliyidai/


You May Also Like