October 28, 2017 •

Ettam Pattu – Avial

Guitar chords / tabs for the song Ettam Paatu by Avial.

Song: Ettam Pattu
Band: Avial
Members: Tony John, Rex Vijayan, Mithun Puthanveetil, Binny Isaac

Intro

Bm     A

Bm     A

 

Intro Riff tabs

E---------------------3-2------------|
B----2/3-------2-3-------------------|
G--------2---------------------0-----|
D----------------------------4-------|
A--2---------0-----------------------|
E-------------------0------3---------|
E------------------------------------|
B----2/3-----------------------------|
G--------2-----2------2------0-------|
D----------------4------4------4-----|
A--2---------0-----------------------|
E-------------------0------3---------|
E---------------------3-2------------|
B----2/3-------2-3-------------------|
G--------2---------------------0-----|
D----------------------------4-------|
A--2---------0-----------------------|
E-------------------0------3---------|
E---------------------2-------0------|
B----2/3-------0--------0-------0----|
G--------2---------------------------|
D----------------4-------------------|
A--2---------0-----------------------|
E-------------------0------3---------|

 

Strumming: D UU D UU

Bm               A
Maanathulla chelu vilakke

G                    A
Keezhe ninnu njan kandathalle

Bm                A
Kaaru vanne koletaam vanne

Em                    A
Kaatu vanne pinnem paranje

 

G                             A
Kunnum kadannu njaningu vanne

Em                              A
pinneyum nokumbo njan angu poye

 

F#           A

F#           A

 

Repeat Intro tab riff

Bm                     A
Thira kaananja theeram nadanne

G                    A
Thira adikya kadalum kadanne

Bm                      A
Maanathuunu vettam pozhinje

Em                       A
maaru mudam theeram kamazhne

 

G
Therathallum theeram

A
Thalathallum thaalam

Em                                 A
Thaalam polinjappo neram veluthe

 

F#           A

F#           A

 

G#m           F#m

G#m           F#m

 

Bm
Meenayalum kori edukkam

A
Maanayalum poyi pidikyam

G
Kaadayalum njan ondu povan

A
Kadalayalum njanondirangaan

 

G
Kaadum kadannu

A
Kadalum kaddanu

Em                           A
Njanonnu nokumbo bhoomi karanjee

 


You May Also Like